Noah Kahan – ANYWAY Guitar Chords

Noah Kahan – ANYWAY Guitar Chords

Artist : Noah Kahan

Key : [Em]

Tuning : Standard
Transpose up:

E|--------------------------------------------------------------|
B|-----8-----8----------3-----3---------5-----5---5-3--0--------|
G|----0----0-----0----0-----0-----0---0-----0---0----0---2-0----|
D|-----------------------------------------------------------2-0|
A|--7----7------7---2-----2-----2----3----3----3----------------|
E|--------------------------------------------------------------|



E|--------------------------------------------------------------|
B|------0-----7--------0----8--------7-----8-------5----5-------|
G|----0-----0----0---0----0----0---0-----0----0--0----0----0----|
D|--------------------------------------------------------------|
A|--7-----7----7---6----6----6---5-----5----5---3----3----3-----|
E|--------------------------------------------------------------|


E|--------------------------------------------------------------|
B|------5-----7-------------------------------------------------|
G|----0-----0-----0---------------------------------------------|
D|--------------------------------------------------------------|
A|--3-----5-----5-----------------------------------------------|
E|--------------------------------------------------------------|

(INTRO)
Em 
 
G 
 
C 
 
Em 
 
Em 
 
E 
 
D 
 
C 
 
D 
Em 
 
G 
 
C 
 
Em 
 
D# 
 
D 
 
C 
(VER)
 
D
G 
irt on  
Em 
your 
 
hee
G 
ls
 
you’ve made a  
C 
mess
 
D
D 
own by the car
Em 
park
 
hi
G 
gh off your h
C 
ead
 
Ho
G 
ney don’t worry
 
nobody’s  
Em 
angry at any of
C 
this
G 
Darling be patient
 
stare into the va
Am 
cancy, take a dee
C 
 
breath

 

(VER)
 
It’s  
D 
like when you’re tir
Em 
ed
 
y
G 
ou’re someone  
C 
else
 
Don’t s
D 
peak for some t
Em 
ime
 
to find those  
G 
words inside yours
C 
elf
G 
Honey, don’t worry
 
I’ll do your laun
Em 
dry, covered in di
C 
rt
G 
Darling be patient
 
it’s easy to  
Am 
break beneath the weight of the  
C 
earth
 
And I s
D 
aid
(CHO)
Em 
Always, 
 
 
G 
I’ll 
 
wait
C 
 
C 
 
Am 
 
For  
Em 
sharp glass when  
G 
you 
 
break
C 
 
Em 
 
G 
 
I’ll  
C 
be the light that you can’t  
D 
make
G 
C 
I’ll be your eyes, you be my  
D 
face
G 
 
‘Cause  
C 
darling, I get scared for you
 
And I’m not busy  
Bm 
anyway
(INTERLUDE)
Em 
 
G 
 
C 
 
Em 
 
E 
 
D 
 
C 
(VER)
D 
Today you  
Em 
looked
 
ol
G 
der than me
C 
G 
Hair in your  
Em 
face
 
it fills the sp
G 
ace between your tee
C 
th
G 
And all of your falling
 
has it got exhau
Em 
sting? Have you gotten sleep
C 
?
 
You  
G 
said you were sorry
 
that you hadn’t called me in  
Am 
over a week
C 
 
And I sai
D 
d
(CHO)
Em 
Always, 
 
 
G 
I’ll 
 
wait
C 
 
C 
 
Am 
 
For  
Em 
sharp glass when  
G 
you 
 
break
C 
 
Em 
 
G 
 
I’ll  
C 
be the light that you can’t  
D 
make
G 
C 
I’ll be your eyes, you be my  
D 
face
G 
 
‘Cause  
C 
darling, I get scared for you
 
And I’m not busy  
Bm 
anyway

 

(BRI)
 
I  
C 
hope I a
Em 
in’t the last of what the  
Bm 
world left you
C 
 
D 
C 
A coat,  
Em 
something you only wear in cold weather
C 
 
D 
C 
I hope I ai
Em 
n’t the last of what the  
G 
world left you  
C 
 
D 
C 
A coat,  
Em 
something you only wear in cold weather
C 
 
D 
 
I  
C 
hope I a
Em 
in’t the last of what the  
Bm 
world left you
C 
 
D 
C 
A coat,  
Em 
something you only wear in cold weather
C 
 
D 
 
I  
C 
hope I a
Em 
in’t the last of what the  
Bm 
world left you
C 
 
D 
C 
A coat,  
Em 
something you only wear in cold weather
C 
 
D 
(You know better)
 
And I sa
D 
id
(CHO)
Em 
Always, 
 
 
G 
I’ll 
 
wait
C 
 
C 
 
Am 
 
For  
Em 
sharp glass when  
G 
you 
 
break
C 
 
Em 
 
G 
 
I’ll  
C 
be the light that you can’t  
D 
make
G 
C 
I’ll be your eyes, you be my  
D 
face
G 
 
‘Cause  
C 
darling, I get scared for you
 
And I’m not busy  
Bm 
anyway

 

Anyway video

 

About Song

Album : Cape Elizabeth

Lyrics : Noah Kahan

Released : May 01, 2020

Subscribe
Notify of
guest
0 Comments
Inline Feedbacks
View all comments